  0
SECTION
  2
HEADER
  9
$ACADVER
  1
AC1015
  9
$ACADMAINTVER
 70
     6
  9
$DWGCODEPAGE
  3
ANSI_1254
  9
$INSBASE
 10
0.0
 20
0.0
 30
0.0
  9
$EXTMIN
 10
0.0
 20
0.0
 30
0.0
  9
$EXTMAX
 10
279.4
 20
215.9
 30
0.0
  9
$LIMMIN
 10
0.0
 20
0.0
  9
$LIMMAX
 10
279.4
 20
215.9
  9
$ORTHOMODE
 70
     0
  9
$REGENMODE
 70
     1
  9
$FILLMODE
 70
     1
  9
$QTEXTMODE
 70
     0
  9
$MIRRTEXT
 70
     1
  9
$LTSCALE
 40
1.0
  9
$ATTMODE
 70
     1
  9
$TEXTSIZE
 40
3.5
  9
$TRACEWID
 40
1.0
  9
$TEXTSTYLE
  7
Standard
  9
$CLAYER
  8
0
  9
$CELTYPE
  6
ByLayer
  9
$CECOLOR
 62
   256
  9
$CELTSCALE
 40
1.0
  9
$DISPSILH
 70
     0
  9
$DIMSCALE
 40
1.0
  9
$DIMASZ
 40
3.5
  9
$DIMEXO
 40
1.0
  9
$DIMDLI
 40
3.75
  9
$DIMRND
 40
0.0
  9
$DIMDLE
 40
0.0
  9
$DIMEXE
 40
1.0
  9
$DIMTP
 40
0.0
  9
$DIMTM
 40
0.0
  9
$DIMTXT
 40
3.5
  9
$DIMCEN
 40
2.5
  9
$DIMTSZ
 40
0.0
  9
$DIMTOL
 70
     0
  9
$DIMLIM
 70
     0
  9
$DIMTIH
 70
     1
  9
$DIMTOH
 70
     1
  9
$DIMSE1
 70
     0
  9
$DIMSE2
 70
     0
  9
$DIMTAD
 70
     1
  9
$DIMZIN
 70
     0
  9
$DIMBLK
  1

  9
$DIMASO
 70
     1
  9
$DIMSHO
 70
     1
  9
$DIMPOST
  1

  9
$DIMAPOST
  1

  9
$DIMALT
 70
     0
  9
$DIMALTD
 70
     3
  9
$DIMALTF
 40
0.0393700787
  9
$DIMLFAC
 40
1.0
  9
$DIMTOFL
 70
     1
  9
$DIMTVP
 40
0.0
  9
$DIMTIX
 70
     0
  9
$DIMSOXD
 70
     0
  9
$DIMSAH
 70
     0
  9
$DIMBLK1
  1

  9
$DIMBLK2
  1

  9
$DIMSTYLE
  2
ISO-25
  9
$DIMCLRD
 70
     0
  9
$DIMCLRE
 70
     0
  9
$DIMCLRT
 70
     0
  9
$DIMTFAC
 40
1.0
  9
$DIMGAP
 40
1.524
  9
$DIMJUST
 70
     0
  9
$DIMSD1
 70
     0
  9
$DIMSD2
 70
     0
  9
$DIMTOLJ
 70
     0
  9
$DIMTZIN
 70
     0
  9
$DIMALTZ
 70
     0
  9
$DIMALTTZ
 70
     0
  9
$DIMUPT
 70
     0
  9
$DIMDEC
 70
     2
  9
$DIMTDEC
 70
     2
  9
$DIMALTU
 70
     2
  9
$DIMALTTD
 70
     3
  9
$DIMTXSTY
  7
Standard
  9
$DIMAUNIT
 70
     0
  9
$DIMADEC
 70
     2
  9
$DIMALTRND
 40
0.0
  9
$DIMAZIN
 70
     0
  9
$DIMDSEP
 70
    44
  9
$DIMATFIT
 70
     3
  9
$DIMFRAC
 70
     0
  9
$DIMLDRBLK
  1

  9
$DIMLUNIT
 70
     2
  9
$DIMLWD
 70
    -2
  9
$DIMLWE
 70
    -2
  9
$DIMTMOVE
 70
     0
  9
$LUNITS
 70
     2
  9
$LUPREC
 70
     2
  9
$SKETCHINC
 40
1.0
  9
$FILLETRAD
 40
10.0
  9
$AUNITS
 70
     0
  9
$AUPREC
 70
     2
  9
$MENU
  1
.
  9
$ELEVATION
 40
0.0
  9
$PELEVATION
 40
0.0
  9
$THICKNESS
 40
0.0
  9
$LIMCHECK
 70
     0
  9
$CHAMFERA
 40
0.0
  9
$CHAMFERB
 40
0.0
  9
$CHAMFERC
 40
0.0
  9
$CHAMFERD
 40
0.0
  9
$SKPOLY
 70
     0
  9
$TDCREATE
 40
2458985.699238264
  9
$TDUCREATE
 40
2458985.574238264
  9
$TDUPDATE
 40
2458985.69923853
  9
$TDUUPDATE
 40
2458985.57423853
  9
$TDINDWG
 40
0.0000000116
  9
$TDUSRTIMER
 40
0.0000000116
  9
$USRTIMER
 70
     1
  9
$ANGBASE
 50
0.0
  9
$ANGDIR
 70
     0
  9
$PDMODE
 70
     0
  9
$PDSIZE
 40
-1.0
  9
$PLINEWID
 40
0.0
  9
$SPLFRAME
 70
     0
  9
$SPLINETYPE
 70
     6
  9
$SPLINESEGS
 70
     8
  9
$HANDSEED
  5
EF
  9
$SURFTAB1
 70
     6
  9
$SURFTAB2
 70
     6
  9
$SURFTYPE
 70
     6
  9
$SURFU
 70
     6
  9
$SURFV
 70
     6
  9
$UCSBASE
  2

  9
$UCSNAME
  2

  9
$UCSORG
 10
0.0
 20
0.0
 30
0.0
  9
$UCSXDIR
 10
1.0
 20
0.0
 30
0.0
  9
$UCSYDIR
 10
0.0
 20
1.0
 30
0.0
  9
$UCSORTHOREF
  2

  9
$UCSORTHOVIEW
 70
     0
  9
$UCSORGTOP
 10
0.0
 20
0.0
 30
0.0
  9
$UCSORGBOTTOM
 10
0.0
 20
0.0
 30
0.0
  9
$UCSORGLEFT
 10
0.0
 20
0.0
 30
0.0
  9
$UCSORGRIGHT
 10
0.0
 20
0.0
 30
0.0
  9
$UCSORGFRONT
 10
0.0
 20
0.0
 30
0.0
  9
$UCSORGBACK
 10
0.0
 20
0.0
 30
0.0
  9
$PUCSBASE
  2

  9
$PUCSNAME
  2

  9
$PUCSORG
 10
0.0
 20
0.0
 30
0.0
  9
$PUCSXDIR
 10
1.0
 20
0.0
 30
0.0
  9
$PUCSYDIR
 10
0.0
 20
1.0
 30
0.0
  9
$PUCSORTHOREF
  2

  9
$PUCSORTHOVIEW
 70
     0
  9
$PUCSORGTOP
 10
0.0
 20
0.0
 30
0.0
  9
$PUCSORGBOTTOM
 10
0.0
 20
0.0
 30
0.0
  9
$PUCSORGLEFT
 10
0.0
 20
0.0
 30
0.0
  9
$PUCSORGRIGHT
 10
0.0
 20
0.0
 30
0.0
  9
$PUCSORGFRONT
 10
0.0
 20
0.0
 30
0.0
  9
$PUCSORGBACK
 10
0.0
 20
0.0
 30
0.0
  9
$USERI1
 70
     0
  9
$USERI2
 70
     0
  9
$USERI3
 70
     0
  9
$USERI4
 70
     0
  9
$USERI5
 70
     0
  9
$USERR1
 40
0.0
  9
$USERR2
 40
0.0
  9
$USERR3
 40
0.0
  9
$USERR4
 40
0.0
  9
$USERR5
 40
0.0
  9
$WORLDVIEW
 70
     1
  9
$SHADEDGE
 70
     3
  9
$SHADEDIF
 70
    70
  9
$TILEMODE
 70
     1
  9
$MAXACTVP
 70
    64
  9
$PINSBASE
 10
0.0
 20
0.0
 30
0.0
  9
$PLIMCHECK
 70
     0
  9
$PEXTMIN
 10
1.0000000000E+20
 20
1.0000000000E+20
 30
1.0000000000E+20
  9
$PEXTMAX
 10
-1.0000000000E+20
 20
-1.0000000000E+20
 30
-1.0000000000E+20
  9
$PLIMMIN
 10
0.0
 20
0.0
  9
$PLIMMAX
 10
420.0
 20
297.0
  9
$UNITMODE
 70
     0
  9
$VISRETAIN
 70
     1
  9
$PLINEGEN
 70
     0
  9
$PSLTSCALE
 70
     1
  9
$TREEDEPTH
 70
  3020
  9
$CMLSTYLE
  2
Standard
  9
$CMLJUST
 70
     0
  9
$CMLSCALE
 40
20.0
  9
$PROXYGRAPHICS
 70
     1
  9
$MEASUREMENT
 70
     1
  9
$CELWEIGHT
370
    -1
  9
$ENDCAPS
280
     0
  9
$JOINSTYLE
280
     0
  9
$LWDISPLAY
290
     1
  9
$INSUNITS
 70
     4
  9
$HYPERLINKBASE
  1

  9
$STYLESHEET
  1

  9
$XEDIT
290
     1
  9
$CEPSNTYPE
380
     0
  9
$PSTYLEMODE
290
     1
  9
$FINGERPRINTGUID
  2
{1fd1b507-3b0e-4b38-869f-10099d8e61b1}
  9
$VERSIONGUID
  2
{FAEB1C32-E019-11D5-929B-00C0DF256EC4}
  9
$EXTNAMES
290
     1
  9
$PSVPSCALE
 40
0.0
  9
$OLESTARTUP
290
     0
  0
ENDSEC
  0
SECTION
  2
CLASSES
  0
CLASS
  1
ACDBDICTIONARYWDFLT
  2
AcDbDictionaryWithDefault
  3
ObjectDBX Classes
 90
        0
280
     0
281
     0
  0
CLASS
  1
VISUALSTYLE
  2
AcDbVisualStyle
  3
ObjectDBX Classes
 90
     4095
280
     0
281
     0
  0
CLASS
  1
MATERIAL
  2
AcDbMaterial
  3
ObjectDBX Classes
 90
     1153
280
     0
281
     0
  0
CLASS
  1
SCALE
  2
AcDbScale
  3
ObjectDBX Classes
 90
     1153
280
     0
281
     0
  0
CLASS
  1
TABLESTYLE
  2
AcDbTableStyle
  3
ObjectDBX Classes
 90
     4095
280
     0
281
     0
  0
CLASS
  1
MLEADERSTYLE
  2
AcDbMLeaderStyle
  3
ACDB_MLEADERSTYLE_CLASS
 90
     4095
280
     0
281
     0
  0
CLASS
  1
SUN
  2
AcDbSun
  3
SCENEOE
 90
     1153
280
     0
281
     0
  0
CLASS
  1
ACDBPLACEHOLDER
  2
AcDbPlaceHolder
  3
ObjectDBX Classes
 90
        0
280
     0
281
     0
  0
CLASS
  1
LAYOUT
  2
AcDbLayout
  3
ObjectDBX Classes
 90
        0
280
     0
281
     0
  0
ENDSEC
  0
SECTION
  2
TABLES
  0
TABLE
  2
VPORT
  5
8
330
0
100
AcDbSymbolTable
 70
     1
  0
VPORT
  5
29
330
8
100
AcDbSymbolTableRecord
100
AcDbViewportTableRecord
  2
*Active
 70
     0
 10
0.0
 20
0.0
 11
1.0
 21
1.0
 12
139.7
 22
107.95
 13
0.0
 23
0.0
 14
10.0
 24
10.0
 15
10.0
 25
10.0
 16
0.0
 26
0.0
 36
1.0
 17
0.0
 27
0.0
 37
0.0
 40
215.9
 41
1.2941176471
 42
50.0
 43
0.0
 44
0.0
 50
0.0
 51
0.0
 71
     0
 72
  2000
 73
     1
 74
     3
 75
     0
 76
     0
 77
     0
 78
     0
281
     0
 65
     1
110
0.0
120
0.0
130
0.0
111
1.0
121
0.0
131
0.0
112
0.0
122
1.0
132
0.0
 79
     0
146
0.0
  0
ENDTAB
  0
TABLE
  2
LTYPE
  5
5
330
0
100
AcDbSymbolTable
 70
     6
  0
LTYPE
  5
14
330
5
100
AcDbSymbolTableRecord
100
AcDbLinetypeTableRecord
  2
ByBlock
 70
     0
  3

 72
    65
 73
     0
 40
0.0
  0
LTYPE
  5
15
330
5
100
AcDbSymbolTableRecord
100
AcDbLinetypeTableRecord
  2
ByLayer
 70
     0
  3

 72
    65
 73
     0
 40
0.0
  0
LTYPE
  5
16
330
5
100
AcDbSymbolTableRecord
100
AcDbLinetypeTableRecord
  2
Continuous
 70
     0
  3
Solid line
 72
    65
 73
     0
 40
0.0
  0
LTYPE
  5
6E
330
5
100
AcDbSymbolTableRecord
100
AcDbLinetypeTableRecord
  2
HIDDEN
 70
     0
  3
Hidden __ __ __ __ __ __ __ __ __ __ __ __ __ __
 72
    65
 73
     2
 40
1.905
 49
1.27
 74
     0
 49
-0.635
 74
     0
  0
LTYPE
  5
6F
330
5
100
AcDbSymbolTableRecord
100
AcDbLinetypeTableRecord
  2
PHANTOM
 70
     0
  3
Phantom ______  __  __  ______  __  __  ______
 72
    65
 73
     6
 40
12.7
 49
6.35
 74
     0
 49
-1.27
 74
     0
 49
1.27
 74
     0
 49
-1.27
 74
     0
 49
1.27
 74
     0
 49
-1.27
 74
     0
  0
LTYPE
  5
70
330
5
100
AcDbSymbolTableRecord
100
AcDbLinetypeTableRecord
  2
CENTER
 70
     0
  3
Center ____ _ ____ _ ____ _ ____ _ ____ _ ____
 72
    65
 73
     4
 40
10.16
 49
6.35
 74
     0
 49
-1.27
 74
     0
 49
1.27
 74
     0
 49
-1.27
 74
     0
  0
LTYPE
  5
71
330
5
100
AcDbSymbolTableRecord
100
AcDbLinetypeTableRecord
  2
CENTERX2
 70
     0
  3
Center (2x) ________  __  ________  __  _____
 72
    65
 73
     4
 40
20.32
 49
12.7
 74
     0
 49
-2.54
 74
     0
 49
2.54
 74
     0
 49
-2.54
 74
     0
  0
LTYPE
  5
72
330
5
100
AcDbSymbolTableRecord
100
AcDbLinetypeTableRecord
  2
DOT2
 70
     0
  3
Dot (.5x) ........................................
 72
    65
 73
     2
 40
0.635
 49
0.0
 74
     0
 49
-0.635
 74
     0
  0
ENDTAB
  0
TABLE
  2
LAYER
  5
2
330
0
100
AcDbSymbolTable
 70
    17
  0
LAYER
  5
10
330
2
100
AcDbSymbolTableRecord
100
AcDbLayerTableRecord
  2
0
 70
     0
 62
     7
  6
Continuous
370
    -3
390
F
  0
LAYER
  5
73
330
2
100
AcDbSymbolTableRecord
100
AcDbLayerTableRecord
  2
FORMAT
 70
     0
 62
     7
  6
Continuous
370
    -3
390
F
  0
LAYER
  5
74
330
2
100
AcDbSymbolTableRecord
100
AcDbLayerTableRecord
  2
YARDIMCI_GEOMETRI
 70
     0
 62
    -6
  6
Continuous
290
     0
370
    -3
390
F
  0
LAYER
  5
75
330
2
100
AcDbSymbolTableRecord
100
AcDbLayerTableRecord
  2
SAYFA_CERCEVESI
 70
     0
 62
     7
  6
Continuous
370
    25
390
F
  0
LAYER
  5
76
330
2
100
AcDbSymbolTableRecord
100
AcDbLayerTableRecord
  2
ANTET
 70
     0
 62
     7
  6
Continuous
370
    -3
390
F
  0
LAYER
  5
77
330
2
100
AcDbSymbolTableRecord
100
AcDbLayerTableRecord
  2
OLCU
 70
     0
 62
   150
  6
Continuous
370
    -3
390
F
  0
LAYER
  5
78
330
2
100
AcDbSymbolTableRecord
100
AcDbLayerTableRecord
  2
METIN
 70
     0
 62
    96
  6
Continuous
370
    -3
390
F
  0
LAYER
  5
79
330
2
100
AcDbSymbolTableRecord
100
AcDbLayerTableRecord
  2
BALON
 70
     0
 62
     5
  6
Continuous
370
    -3
390
F
  0
LAYER
  5
7A
330
2
100
AcDbSymbolTableRecord
100
AcDbLayerTableRecord
  2
VURGU
 70
     0
 62
     7
  6
Continuous
370
    -3
390
F
  0
LAYER
  5
7B
330
2
100
AcDbSymbolTableRecord
100
AcDbLayerTableRecord
  2
SILIK
 70
     0
 62
     7
  6
Continuous
370
    -3
390
F
  0
LAYER
  5
7C
330
2
100
AcDbSymbolTableRecord
100
AcDbLayerTableRecord
  2
MODEL
 70
     0
 62
     7
  6
Continuous
370
    -3
390
F
  0
LAYER
  5
7D
330
2
100
AcDbSymbolTableRecord
100
AcDbLayerTableRecord
  2
DETAYLANDıRMA
 70
     0
 62
   190
  6
Continuous
370
    -3
390
F
  0
LAYER
  5
7E
330
2
100
AcDbSymbolTableRecord
100
AcDbLayerTableRecord
  2
TOLERANS
 70
     0
 62
   230
  6
Continuous
370
    -3
390
F
  0
LAYER
  5
7F
330
2
100
AcDbSymbolTableRecord
100
AcDbLayerTableRecord
  2
MERKEZ_CIZGILERI
 70
     0
 62
    30
  6
Continuous
370
    -3
390
F
  0
LAYER
  5
80
330
2
100
AcDbSymbolTableRecord
100
AcDbLayerTableRecord
  2
KESIT-DETAY_CIZGILERI
 70
     0
 62
     7
  6
Continuous
370
    -3
390
F
  0
LAYER
  5
81
330
2
100
AcDbSymbolTableRecord
100
AcDbLayerTableRecord
  2
\U+041E\U+0421\U+0415\U+0412\U+042B\U+0415
 70
     0
 62
     7
  6
Continuous
370
    -3
390
F
  0
LAYER
  5
82
330
2
100
AcDbSymbolTableRecord
100
AcDbLayerTableRecord
  2
\U+0412\U+041E\U+0414\U+042F\U+041D\U+042B\U+0415_\U+0417\U+041D\U+0410\U+041A\U+0418
 70
     0
 62
    11
  6
Continuous
370
    -3
390
F
  0
ENDTAB
  0
TABLE
  2
STYLE
  5
3
330
0
100
AcDbSymbolTable
 70
     1
  0
STYLE
  5
11
330
3
100
AcDbSymbolTableRecord
100
AcDbTextStyleTableRecord
  2
Standard
 70
     0
 40
0.0
 41
1.0
 50
0.0
 71
     0
 42
3.5
  3
txt
  4

  0
ENDTAB
  0
TABLE
  2
VIEW
  5
6
330
0
100
AcDbSymbolTable
 70
     0
  0
ENDTAB
  0
TABLE
  2
UCS
  5
7
330
0
100
AcDbSymbolTable
 70
     0
  0
ENDTAB
  0
TABLE
  2
APPID
  5
9
330
0
100
AcDbSymbolTable
 70
     1
  0
APPID
  5
12
330
9
100
AcDbSymbolTableRecord
100
AcDbRegAppTableRecord
  2
ACAD
 70
     0
  0
ENDTAB
  0
TABLE
  2
DIMSTYLE
  5
A
330
0
100
AcDbSymbolTable
 70
     1
100
AcDbDimStyleTable
  0
DIMSTYLE
105
27
330
A
100
AcDbSymbolTableRecord
100
AcDbDimStyleTableRecord
  2
ISO-25
 70
     0
 41
2.5
 42
0.625
 43
3.75
 44
1.25
 73
     0
 74
     0
 77
     1
 78
     8
140
2.5
141
2.5
143
0.0393700787
147
0.625
171
     3
172
     1
178
     0
271
     2
272
     2
274
     3
278
    44
283
     0
284
     8
340
11
  0
ENDTAB
  0
TABLE
  2
BLOCK_RECORD
  5
1
330
0
100
AcDbSymbolTable
 70
     2
  0
BLOCK_RECORD
  5
1F
330
1
100
AcDbSymbolTableRecord
100
AcDbBlockTableRecord
  2
*Model_Space
340
22
  0
BLOCK_RECORD
  5
1B
330
1
100
AcDbSymbolTableRecord
100
AcDbBlockTableRecord
  2
*Paper_Space
340
1E
  0
BLOCK_RECORD
  5
23
330
1
100
AcDbSymbolTableRecord
100
AcDbBlockTableRecord
  2
*Paper_Space0
340
26
  0
BLOCK_RECORD
  5
88
330
1
100
AcDbSymbolTableRecord
100
AcDbBlockTableRecord
  2
SW_CENTERMARKSYMBOL_0
340
0
102
{BLKREFS
331
93
102
}
  0
ENDTAB
  0
ENDSEC
  0
SECTION
  2
BLOCKS
  0
BLOCK
  5
20
330
1F
100
AcDbEntity
  8
0
100
AcDbBlockBegin
  2
*Model_Space
 70
     0
 10
0.0
 20
0.0
 30
0.0
  3
*Model_Space
  1

  0
ENDBLK
  5
21
330
1F
100
AcDbEntity
  8
0
100
AcDbBlockEnd
  0
BLOCK
  5
1C
330
1B
100
AcDbEntity
 67
     1
  8
0
100
AcDbBlockBegin
  2
*Paper_Space
 70
     0
 10
0.0
 20
0.0
 30
0.0
  3
*Paper_Space
  1

  0
ENDBLK
  5
1D
330
1B
100
AcDbEntity
 67
     1
  8
0
100
AcDbBlockEnd
  0
BLOCK
  5
24
330
23
100
AcDbEntity
  8
0
100
AcDbBlockBegin
  2
*Paper_Space0
 70
     0
 10
0.0
 20
0.0
 30
0.0
  3
*Paper_Space0
  1

  0
ENDBLK
  5
25
330
23
100
AcDbEntity
  8
0
100
AcDbBlockEnd
  0
BLOCK
  5
89
330
88
100
AcDbEntity
  8
0
100
AcDbBlockBegin
  2
SW_CENTERMARKSYMBOL_0
 70
     0
 10
0.0
 20
0.0
 30
0.0
  3
SW_CENTERMARKSYMBOL_0
  1

  0
LINE
  5
8B
330
88
100
AcDbEntity
  8
FORMAT
 62
     0
100
AcDbLine
 10
0.0
 20
0.0
 30
0.0
 11
0.0
 21
2.5
 31
0.0
  0
LINE
  5
8C
330
88
100
AcDbEntity
  8
FORMAT
 62
     0
100
AcDbLine
 10
0.0
 20
0.0
 30
0.0
 11
-2.5
 21
0.0
 31
0.0
  0
LINE
  5
8D
330
88
100
AcDbEntity
  8
FORMAT
 62
     0
100
AcDbLine
 10
0.0
 20
0.0
 30
0.0
 11
0.0
 21
-2.5
 31
0.0
  0
LINE
  5
8E
330
88
100
AcDbEntity
  8
FORMAT
 62
     0
100
AcDbLine
 10
0.0
 20
0.0
 30
0.0
 11
2.5
 21
0.0
 31
0.0
  0
LINE
  5
8F
330
88
100
AcDbEntity
  8
FORMAT
 62
     0
100
AcDbLine
 10
0.0
 20
5.0
 30
0.0
 11
0.0
 21
82.5
 31
0.0
  0
LINE
  5
90
330
88
100
AcDbEntity
  8
FORMAT
 62
     0
100
AcDbLine
 10
-5.0
 20
0.0
 30
0.0
 11
-82.5
 21
0.0
 31
0.0
  0
LINE
  5
91
330
88
100
AcDbEntity
  8
FORMAT
 62
     0
100
AcDbLine
 10
0.0
 20
-5.0
 30
0.0
 11
0.0
 21
-82.5
 31
0.0
  0
LINE
  5
92
330
88
100
AcDbEntity
  8
FORMAT
 62
     0
100
AcDbLine
 10
5.0
 20
0.0
 30
0.0
 11
82.5
 21
0.0
 31
0.0
  0
ENDBLK
  5
8A
330
88
100
AcDbEntity
  8
0
100
AcDbBlockEnd
  0
ENDSEC
  0
SECTION
  2
ENTITIES
  0
CIRCLE
  5
83
330
1F
100
AcDbEntity
  8
0
  6
Continuous
 62
     7
370
    25
100
AcDbCircle
 10
139.395004093
 20
107.5851680021
 30
0.0
 40
80.0
  0
CIRCLE
  5
84
330
1F
100
AcDbEntity
  8
0
  6
Continuous
 62
     7
370
    25
100
AcDbCircle
 10
139.395004093
 20
107.5851680021
 30
0.0
 40
65.40000000000002
  0
CIRCLE
  5
85
330
1F
100
AcDbEntity
  8
0
  6
Continuous
 62
     7
370
    25
100
AcDbCircle
 10
139.395004093
 20
107.5851680021
 30
0.0
 40
65.22807879260337
  0
CIRCLE
  5
86
330
1F
100
AcDbEntity
  8
0
  6
Continuous
 62
     7
370
    25
100
AcDbCircle
 10
139.395004093
 20
107.5851680021
 30
0.0
 40
51.27192120739666
  0
CIRCLE
  5
87
330
1F
100
AcDbEntity
  8
0
  6
Continuous
 62
     7
370
    25
100
AcDbCircle
 10
139.395004093
 20
107.5851680021
 30
0.0
 40
51.10000000000001
  0
INSERT
  5
93
330
1F
100
AcDbEntity
  8
FORMAT
 62
     7
100
AcDbBlockReference
  2
SW_CENTERMARKSYMBOL_0
 10
139.395004093
 20
107.5851680021
 30
0.0
  0
ARC
  5
94
330
1F
100
AcDbEntity
  8
0
  6
Continuous
 62
     7
370
    25
100
AcDbCircle
 10
-139.1675971503
 20
185.5851680021
 30
0.0
 40
2.000000000000007
100
AcDbArc
 50
74.9315118405
 51
90.0
  0
ARC
  5
95
330
1F
100
AcDbEntity
  8
0
  6
Continuous
 62
     7
370
    25
100
AcDbCircle
 10
-139.1675971503
 20
29.5851680021
 30
0.0
 40
2.000000000000014
100
AcDbArc
 50
270.0
 51
285.0684881595
  0
LINE
  5
96
330
1F
100
AcDbEntity
  8
0
  6
Continuous
 62
     7
370
    25
100
AcDbLine
 10
-139.1675967433
 20
187.585166214
 30
0.0
 11
-236.90307808
 21
187.585166214
 31
0.0
  0
LINE
  5
97
330
1F
100
AcDbEntity
  8
0
  6
Continuous
 62
     7
370
    25
100
AcDbLine
 10
-236.90307808
 20
27.5851697903
 30
0.0
 11
-139.1675967433
 21
27.5851697903
 31
0.0
  0
LINE
  5
98
330
1F
100
AcDbEntity
  8
0
  6
Continuous
 62
     7
370
    25
100
AcDbLine
 10
-138.6476505258
 20
27.6539386492
 30
0.0
 11
-74.158500106
 21
45.0163991432
 31
0.0
  0
LINE
  5
99
330
1F
100
AcDbEntity
  8
0
  6
Continuous
 62
     7
370
    25
100
AcDbLine
 10
-74.158500106
 20
170.153936861
 30
0.0
 11
-138.6476505258
 21
187.5163973551
 31
0.0
  0
ARC
  5
9A
330
1F
100
AcDbEntity
  8
0
  6
Continuous
 62
     7
370
    25
100
AcDbCircle
 10
-73.6385548442
 20
172.0851680021
 30
0.0
 40
2.0
100
AcDbArc
 50
254.9315118405
 51
270.0
  0
ARC
  5
9B
330
1F
100
AcDbEntity
  8
0
  6
Continuous
 62
     7
370
    25
100
AcDbCircle
 10
-73.6385548442
 20
43.0851680021
 30
0.0
 40
2.0
100
AcDbArc
 50
90.0
 51
105.0684881595
  0
LINE
  5
9C
330
1F
100
AcDbEntity
  8
0
  6
Continuous
 62
     7
370
    25
100
AcDbLine
 10
13.0969293705
 20
170.0851680021
 30
0.0
 11
-73.6385538884
 21
170.0851680021
 31
0.0
  0
LINE
  5
9D
330
1F
100
AcDbEntity
  8
0
  6
Continuous
 62
     7
370
    25
100
AcDbLine
 10
-73.6385538884
 20
45.0851680021
 30
0.0
 11
13.0969293705
 21
45.0851680021
 31
0.0
  0
LINE
  5
9E
330
1F
100
AcDbEntity
  8
0
  6
Continuous
 62
     7
370
    25
100
AcDbLine
 10
-236.90307808
 20
187.585166214
 30
0.0
 11
-236.90307808
 21
27.5851697903
 31
0.0
  0
LINE
  5
9F
330
1F
100
AcDbEntity
  8
0
  6
Continuous
 62
     7
370
    25
100
AcDbLine
 10
13.0969293705
 20
170.0851680021
 30
0.0
 11
13.0969293705
 21
45.0851680021
 31
0.0
  0
LINE
  5
A0
330
1F
100
AcDbEntity
  8
0
  6
Continuous
 62
     1
370
    25
100
AcDbLine
 10
-138.6476505258
 20
187.5163973551
 30
0.0
 11
-138.6476505258
 21
27.6539386492
 31
0.0
  0
LINE
  5
A1
330
1F
100
AcDbEntity
  8
0
  6
Continuous
 62
     1
370
    25
100
AcDbLine
 10
-139.1675967433
 20
187.585166214
 30
0.0
 11
-139.1675967433
 21
27.5851697903
 31
0.0
  0
LINE
  5
A2
330
1F
100
AcDbEntity
  8
0
  6
Continuous
 62
     1
370
    25
100
AcDbLine
 10
-74.158500106
 20
170.153936861
 30
0.0
 11
-74.158500106
 21
45.0163991432
 31
0.0
  0
LINE
  5
A3
330
1F
100
AcDbEntity
  8
0
  6
Continuous
 62
     1
370
    25
100
AcDbLine
 10
-73.6385538884
 20
170.0851680021
 30
0.0
 11
-73.6385538884
 21
45.0851680021
 31
0.0
  0
ARC
  5
A4
330
1F
100
AcDbEntity
  8
0
  6
Continuous
 62
     7
370
    25
100
AcDbCircle
 10
424.1859552788
 20
29.5851680021
 30
0.0
 40
2.000000000000021
100
AcDbArc
 50
254.9315118405
 51
270.0
  0
ARC
  5
A5
330
1F
100
AcDbEntity
  8
0
  6
Continuous
 62
     7
370
    25
100
AcDbCircle
 10
424.1859552788
 20
185.5851680021
 30
0.0
 40
2.000000000000015
100
AcDbArc
 50
90.0
 51
105.0684881595
  0
LINE
  5
A6
330
1F
100
AcDbEntity
  8
0
  6
Continuous
 62
     7
370
    25
100
AcDbLine
 10
424.1859548718
 20
27.5851697903
 30
0.0
 11
521.9214362085
 21
27.5851697903
 31
0.0
  0
LINE
  5
A7
330
1F
100
AcDbEntity
  8
0
  6
Continuous
 62
     7
370
    25
100
AcDbLine
 10
521.9214362085
 20
187.585166214
 30
0.0
 11
424.1859548718
 21
187.585166214
 31
0.0
  0
LINE
  5
A8
330
1F
100
AcDbEntity
  8
0
  6
Continuous
 62
     7
370
    25
100
AcDbLine
 10
423.6660086542
 20
187.5163973551
 30
0.0
 11
359.1768582344
 21
170.153936861
 31
0.0
  0
LINE
  5
A9
330
1F
100
AcDbEntity
  8
0
  6
Continuous
 62
     7
370
    25
100
AcDbLine
 10
359.1768582344
 20
45.0163991432
 30
0.0
 11
423.6660086542
 21
27.6539386492
 31
0.0
  0
ARC
  5
AA
330
1F
100
AcDbEntity
  8
0
  6
Continuous
 62
     7
370
    25
100
AcDbCircle
 10
358.6569129727
 20
43.0851680021
 30
0.0
 40
2.000000000000008
100
AcDbArc
 50
74.9315118405
 51
90.0
  0
ARC
  5
AB
330
1F
100
AcDbEntity
  8
0
  6
Continuous
 62
     7
370
    25
100
AcDbCircle
 10
358.6569129727
 20
172.0851680021
 30
0.0
 40
2.0
100
AcDbArc
 50
270.0
 51
285.0684881595
  0
LINE
  5
AC
330
1F
100
AcDbEntity
  8
0
  6
Continuous
 62
     7
370
    25
100
AcDbLine
 10
271.9214287579
 20
45.0851680021
 30
0.0
 11
358.6569120169
 21
45.0851680021
 31
0.0
  0
LINE
  5
AD
330
1F
100
AcDbEntity
  8
0
  6
Continuous
 62
     7
370
    25
100
AcDbLine
 10
358.6569120169
 20
170.0851680021
 30
0.0
 11
271.9214287579
 21
170.0851680021
 31
0.0
  0
LINE
  5
AE
330
1F
100
AcDbEntity
  8
0
  6
Continuous
 62
     7
370
    25
100
AcDbLine
 10
521.9214362085
 20
107.5851680021
 30
0.0
 11
521.9214362085
 21
187.585166214
 31
0.0
  0
LINE
  5
AF
330
1F
100
AcDbEntity
  8
0
  6
Continuous
 62
     7
370
    25
100
AcDbLine
 10
521.9214362085
 20
27.5851697903
 30
0.0
 11
521.9214362085
 21
107.5851680021
 31
0.0
  0
LINE
  5
B0
330
1F
100
AcDbEntity
  8
0
  6
Continuous
 62
     7
370
    25
100
AcDbLine
 10
271.9214287579
 20
107.5851680021
 30
0.0
 11
271.9214287579
 21
170.0851680021
 31
0.0
  0
LINE
  5
B1
330
1F
100
AcDbEntity
  8
0
  6
Continuous
 62
     7
370
    25
100
AcDbLine
 10
271.9214287579
 20
45.0851680021
 30
0.0
 11
271.9214287579
 21
107.5851680021
 31
0.0
  0
LINE
  5
B2
330
1F
100
AcDbEntity
  8
0
  6
Continuous
 62
     1
370
    25
100
AcDbLine
 10
423.6660086542
 20
107.5851680021
 30
0.0
 11
423.6660086542
 21
187.5163973551
 31
0.0
  0
LINE
  5
B3
330
1F
100
AcDbEntity
  8
0
  6
Continuous
 62
     1
370
    25
100
AcDbLine
 10
423.6660086542
 20
27.6539386492
 30
0.0
 11
423.6660086542
 21
107.5851680021
 31
0.0
  0
LINE
  5
B4
330
1F
100
AcDbEntity
  8
0
  6
Continuous
 62
     1
370
    25
100
AcDbLine
 10
424.1859548718
 20
107.5851680021
 30
0.0
 11
424.1859548718
 21
187.585166214
 31
0.0
  0
LINE
  5
B5
330
1F
100
AcDbEntity
  8
0
  6
Continuous
 62
     1
370
    25
100
AcDbLine
 10
424.1859548718
 20
27.5851697903
 30
0.0
 11
424.1859548718
 21
107.5851680021
 31
0.0
  0
LINE
  5
B6
330
1F
100
AcDbEntity
  8
0
  6
Continuous
 62
     1
370
    25
100
AcDbLine
 10
359.1768582344
 20
107.5851680021
 30
0.0
 11
359.1768582344
 21
170.153936861
 31
0.0
  0
LINE
  5
B7
330
1F
100
AcDbEntity
  8
0
  6
Continuous
 62
     1
370
    25
100
AcDbLine
 10
359.1768582344
 20
45.0163991432
 30
0.0
 11
359.1768582344
 21
107.5851680021
 31
0.0
  0
LINE
  5
B8
330
1F
100
AcDbEntity
  8
0
  6
Continuous
 62
     1
370
    25
100
AcDbLine
 10
358.6569120169
 20
107.5851680021
 30
0.0
 11
358.6569120169
 21
170.0851680021
 31
0.0
  0
LINE
  5
B9
330
1F
100
AcDbEntity
  8
0
  6
Continuous
 62
     1
370
    25
100
AcDbLine
 10
358.6569120169
 20
45.0851680021
 30
0.0
 11
358.6569120169
 21
107.5851680021
 31
0.0
  0
ARC
  5
BA
330
1F
100
AcDbEntity
  8
0
  6
Continuous
 62
     7
370
    25
100
AcDbCircle
 10
217.395004093
 20
361.8346246969
 30
0.0
 40
2.000000000000015
100
AcDbArc
 50
344.9315118405
 51
0.0
  0
ARC
  5
BB
330
1F
100
AcDbEntity
  8
0
  6
Continuous
 62
     7
370
    25
100
AcDbCircle
 10
61.395004093
 20
361.8346246969
 30
0.0
 40
2.000000000000021
100
AcDbArc
 50
180.0
 51
195.0684881595
  0
LINE
  5
BC
330
1F
100
AcDbEntity
  8
0
  6
Continuous
 62
     7
370
    25
100
AcDbLine
 10
219.3950023049
 20
361.8346242899
 30
0.0
 11
219.3950023049
 21
459.5701056266
 31
0.0
  0
LINE
  5
BD
330
1F
100
AcDbEntity
  8
0
  6
Continuous
 62
     7
370
    25
100
AcDbLine
 10
59.3950058812
 20
459.5701056266
 30
0.0
 11
59.3950058812
 21
361.8346242899
 31
0.0
  0
LINE
  5
BE
330
1F
100
AcDbEntity
  8
0
  6
Continuous
 62
     7
370
    25
100
AcDbLine
 10
59.4637747401
 20
361.3146780723
 30
0.0
 11
76.8262352341
 21
296.8255276525
 31
0.0
  0
LINE
  5
BF
330
1F
100
AcDbEntity
  8
0
  6
Continuous
 62
     7
370
    25
100
AcDbLine
 10
201.963772952
 20
296.8255276525
 30
0.0
 11
219.326233446
 21
361.3146780723
 31
0.0
  0
ARC
  5
C0
330
1F
100
AcDbEntity
  8
0
  6
Continuous
 62
     7
370
    25
100
AcDbCircle
 10
203.895004093
 20
296.3055823908
 30
0.0
 40
2.0
100
AcDbArc
 50
164.9315118405
 51
180.0
  0
ARC
  5
C1
330
1F
100
AcDbEntity
  8
0
  6
Continuous
 62
     7
370
    25
100
AcDbCircle
 10
74.895004093
 20
296.3055823908
 30
0.0
 40
2.0
100
AcDbArc
 50
0.0
 51
15.0684881595
  0
LINE
  5
C2
330
1F
100
AcDbEntity
  8
0
  6
Continuous
 62
     7
370
    25
100
AcDbLine
 10
201.895004093
 20
209.570098176
 30
0.0
 11
201.895004093
 21
296.305581435
 31
0.0
  0
LINE
  5
C3
330
1F
100
AcDbEntity
  8
0
  6
Continuous
 62
     7
370
    25
100
AcDbLine
 10
76.895004093
 20
296.305581435
 30
0.0
 11
76.895004093
 21
209.570098176
 31
0.0
  0
LINE
  5
C4
330
1F
100
AcDbEntity
  8
0
  6
Continuous
 62
     7
370
    25
100
AcDbLine
 10
219.3950023049
 20
459.5701056266
 30
0.0
 11
59.3950058812
 21
459.5701056266
 31
0.0
  0
LINE
  5
C5
330
1F
100
AcDbEntity
  8
0
  6
Continuous
 62
     7
370
    25
100
AcDbLine
 10
201.895004093
 20
209.570098176
 30
0.0
 11
76.895004093
 21
209.570098176
 31
0.0
  0
LINE
  5
C6
330
1F
100
AcDbEntity
  8
0
  6
Continuous
 62
     1
370
    25
100
AcDbLine
 10
219.326233446
 20
361.3146780723
 30
0.0
 11
59.4637747401
 21
361.3146780723
 31
0.0
  0
LINE
  5
C7
330
1F
100
AcDbEntity
  8
0
  6
Continuous
 62
     1
370
    25
100
AcDbLine
 10
219.3950023049
 20
361.8346242899
 30
0.0
 11
59.3950058812
 21
361.8346242899
 31
0.0
  0
LINE
  5
C8
330
1F
100
AcDbEntity
  8
0
  6
Continuous
 62
     1
370
    25
100
AcDbLine
 10
201.963772952
 20
296.8255276525
 30
0.0
 11
76.8262352341
 21
296.8255276525
 31
0.0
  0
LINE
  5
C9
330
1F
100
AcDbEntity
  8
0
  6
Continuous
 62
     1
370
    25
100
AcDbLine
 10
201.895004093
 20
296.305581435
 30
0.0
 11
76.895004093
 21
296.305581435
 31
0.0
  0
ARC
  5
CA
330
1F
100
AcDbEntity
  8
0
  6
Continuous
 62
     7
370
    25
100
AcDbCircle
 10
61.395004093
 20
-145.4356479007
 30
0.0
 40
2.000000000000007
100
AcDbArc
 50
164.9315118405
 51
180.0
  0
ARC
  5
CB
330
1F
100
AcDbEntity
  8
0
  6
Continuous
 62
     7
370
    25
100
AcDbCircle
 10
217.395004093
 20
-145.4356479007
 30
0.0
 40
2.0
100
AcDbArc
 50
0.0
 51
15.0684881595
  0
LINE
  5
CC
330
1F
100
AcDbEntity
  8
0
  6
Continuous
 62
     7
370
    25
100
AcDbLine
 10
59.3950058812
 20
-145.4356474937
 30
0.0
 11
59.3950058812
 21
-243.1711288305
 31
0.0
  0
LINE
  5
CD
330
1F
100
AcDbEntity
  8
0
  6
Continuous
 62
     7
370
    25
100
AcDbLine
 10
219.3950023049
 20
-243.1711288305
 30
0.0
 11
219.3950023049
 21
-145.4356474937
 31
0.0
  0
LINE
  5
CE
330
1F
100
AcDbEntity
  8
0
  6
Continuous
 62
     7
370
    25
100
AcDbLine
 10
219.326233446
 20
-144.9157012762
 30
0.0
 11
201.963772952
 21
-80.4265508564
 31
0.0
  0
LINE
  5
CF
330
1F
100
AcDbEntity
  8
0
  6
Continuous
 62
     7
370
    25
100
AcDbLine
 10
76.8262352341
 20
-80.4265508564
 30
0.0
 11
59.4637747401
 21
-144.9157012762
 31
0.0
  0
ARC
  5
D0
330
1F
100
AcDbEntity
  8
0
  6
Continuous
 62
     7
370
    25
100
AcDbCircle
 10
74.895004093
 20
-79.9066055947
 30
0.0
 40
2.0
100
AcDbArc
 50
344.9315118405
 51
0.0
  0
ARC
  5
D1
330
1F
100
AcDbEntity
  8
0
  6
Continuous
 62
     7
370
    25
100
AcDbCircle
 10
203.895004093
 20
-79.9066055947
 30
0.0
 40
2.0
100
AcDbArc
 50
180.0
 51
195.0684881595
  0
LINE
  5
D2
330
1F
100
AcDbEntity
  8
0
  6
Continuous
 62
     7
370
    25
100
AcDbLine
 10
76.895004093
 20
6.8288786201
 30
0.0
 11
76.895004093
 21
-79.9066046388
 31
0.0
  0
LINE
  5
D3
330
1F
100
AcDbEntity
  8
0
  6
Continuous
 62
     7
370
    25
100
AcDbLine
 10
201.895004093
 20
-79.9066046388
 30
0.0
 11
201.895004093
 21
6.8288786201
 31
0.0
  0
LINE
  5
D4
330
1F
100
AcDbEntity
  8
0
  6
Continuous
 62
     7
370
    25
100
AcDbLine
 10
59.3950058812
 20
-243.1711288305
 30
0.0
 11
219.3950023049
 21
-243.1711288305
 31
0.0
  0
LINE
  5
D5
330
1F
100
AcDbEntity
  8
0
  6
Continuous
 62
     7
370
    25
100
AcDbLine
 10
76.895004093
 20
6.8288786201
 30
0.0
 11
201.895004093
 21
6.8288786201
 31
0.0
  0
LINE
  5
D6
330
1F
100
AcDbEntity
  8
0
  6
Continuous
 62
     1
370
    25
100
AcDbLine
 10
59.4637747401
 20
-144.9157012762
 30
0.0
 11
219.326233446
 21
-144.9157012762
 31
0.0
  0
LINE
  5
D7
330
1F
100
AcDbEntity
  8
0
  6
Continuous
 62
     1
370
    25
100
AcDbLine
 10
59.3950058812
 20
-145.4356474937
 30
0.0
 11
219.3950023049
 21
-145.4356474937
 31
0.0
  0
LINE
  5
D8
330
1F
100
AcDbEntity
  8
0
  6
Continuous
 62
     1
370
    25
100
AcDbLine
 10
76.8262352341
 20
-80.4265508564
 30
0.0
 11
201.963772952
 21
-80.4265508564
 31
0.0
  0
LINE
  5
D9
330
1F
100
AcDbEntity
  8
0
  6
Continuous
 62
     1
370
    25
100
AcDbLine
 10
76.895004093
 20
-79.9066046388
 30
0.0
 11
201.895004093
 21
-79.9066046388
 31
0.0
  0
LINE
  5
DA
330
1F
100
AcDbEntity
  8
0
  6
Continuous
 62
     7
370
    25
100
AcDbLine
 10
417.0763182582
 20
-38.8769742709
 30
0.0
 11
347.9668966425
 21
1.0190456172
 31
0.0
  0
LINE
  5
DB
330
1F
100
AcDbEntity
  8
0
  6
Continuous
 62
     7
370
    25
100
AcDbLine
 10
267.9734004275
 20
-137.548768275
 30
0.0
 11
337.0828220432
 21
-177.4447881631
 31
0.0
  0
LINE
  5
DC
330
1F
100
AcDbEntity
  8
0
  6
Continuous
 62
     7
370
    25
100
AcDbLine
 10
421.2729273797
 20
-41.8677882932
 30
0.0
 11
420.2082953521
 21
-40.995643907
 31
0.0
  0
SPLINE
  5
DD
330
1F
100
AcDbEntity
  8
0
  6
Continuous
 62
     7
370
    25
100
AcDbSpline
210
0.0
220
0.0
230
1.0
 70
     8
 71
     3
 72
     9
 73
     5
 74
     0
 42
0.000000001
 43
0.00000001
 40
0.0
 40
0.0
 40
0.0
 40
0.0
 40
0.75057920161581
 40
1.0
 40
1.0
 40
1.0
 40
1.0
 10
340.4648998531981
 20
-179.0775342907704
 30
0.0
 10
340.8486570487484
 20
-179.2490194971424
 30
0.0
 10
341.3599384627872
 20
-179.4774899983271
 30
0.0
 10
341.9018786006805
 20
-179.6413046878976
 30
0.0
 10
342.0370497425503
 20
-179.6821634785574
 30
0.0
  0
LINE
  5
DE
330
1F
100
AcDbEntity
  8
0
  6
Continuous
 62
     7
370
    25
100
AcDbLine
 10
345.8255193197
 20
-180.724237253
 30
0.0
 11
398.2950227002
 21
-191.3330427921
 31
0.0
  0
LINE
  5
DF
330
1F
100
AcDbEntity
  8
0
  6
Continuous
 62
     7
370
    25
100
AcDbLine
 10
459.714321117
 20
-84.9401690637
 30
0.0
 11
424.2883078513
 21
-44.8079727663
 31
0.0
  0
LINE
  5
E0
330
1F
100
AcDbEntity
  8
0
  6
Continuous
 62
     7
370
    25
100
AcDbLine
 10
515.9943092175
 20
-116.187825286
 30
0.0
 11
457.4785677807
 21
-82.407406791
 31
0.0
  0
LINE
  5
E1
330
1F
100
AcDbEntity
  8
0
  6
Continuous
 62
     7
370
    25
100
AcDbLine
 10
394.9836475456
 20
-190.6635129151
 30
0.0
 11
453.4993889824
 21
-224.4439314102
 31
0.0
  0
ARC
  5
E2
330
1F
100
AcDbEntity
  8
0
  6
Continuous
 62
     7
370
    25
100
AcDbCircle
 10
403.6705010192
 20
-62.091404075
 30
0.0
 40
26.80719468679631
100
AcDbArc
 50
52.2884546096
 51
59.9945212034
  0
ARC
  5
E3
330
1F
100
AcDbEntity
  8
0
  6
Continuous
 62
     7
370
    25
100
AcDbCircle
 10
350.4945031322
 20
-154.2010386892
 30
0.0
 40
26.83551898586803
100
AcDbArc
 50
240.0149843799
 51
247.659940495
  0
LWPOLYLINE
  5
E4
330
1F
100
AcDbEntity
  8
0
  6
Continuous
 62
     7
370
    25
100
AcDbPolyline
 90
      118
 70
   128
 43
0.0
 10
251.4016073045
 20
-100.9211850719
 10
251.483156188
 20
-97.3677751105
 10
251.7275762992
 20
-93.7304511844
 10
252.1341564101
 20
-90.0197049531
 10
252.7017216772
 20
-86.2462363995
 10
253.4286441785
 20
-82.4209192297
 10
254.3128271084
 20
-78.5547860426
 10
255.3517100457
 20
-74.6589895466
 10
256.5423111009
 20
-70.7447508525
 10
257.8811900375
 20
-66.8233670741
 10
259.364490419
 20
-62.9061368072
 10
260.9879343401
 20
-59.0043540452
 10
262.7468382322
 20
-55.1292762413
 10
264.6361313028
 20
-51.2920710778
 10
266.6503687058
 20
-47.5038027788
 10
268.7837420787
 20
-43.7753925672
 10
271.0300979815
 20
-40.1175958529
 10
273.3829642389
 20
-36.5409535652
 10
275.835552574
 20
-33.0557754229
 10
278.3807954872
 20
-29.6721156032
 10
281.0113515244
 20
-26.3997301563
 10
283.7196342527
 20
-23.2480541936
 10
286.4978399198
 20
-20.2261676705
 10
289.3379553561
 20
-17.342796907
 10
292.2317922192
 20
-14.6062400665
 10
295.1710067501
 20
-12.0243983359
 10
298.1471241396
 20
-9.6047131901
 10
301.1515642114
 20
-7.3541637326
 10
304.1756638123
 20
-5.279229435
 10
307.2107041424
 20
-3.3858986949
 10
310.247934133
 20
-1.6796370885
 10
313.2785964592
 20
-0.1653541029
 10
316.2939535525
 20
1.1525814619
 10
319.2853103205
 20
2.2703667766
 10
322.2440427936
 20
3.1847815197
 10
325.1616201862
 20
3.8931884459
 10
328.0296302507
 20
4.3935419389
 10
330.8398029853
 20
4.6844077812
 10
333.5840369754
 20
4.7649418587
 10
336.2544191502
 20
4.6349076496
 10
338.8432524415
 20
4.2946861074
 10
341.3430689546
 20
3.7452589302
 10
343.7466615783
 20
2.988205515
 10
346.0471024245
 20
2.0257105614
 10
348.2377586328
 20
0.8605519023
 10
350.3123108102
 20
-0.5039131862
 10
352.2647793726
 20
-2.0637540708
 10
354.0895377156
 20
-3.8144652413
 10
355.7813174831
 20
-5.7510088973
 10
357.3352507143
 20
-7.8677906168
 10
358.7468487697
 20
-10.1587171501
 10
360.0120444785
 20
-12.6171751302
 10
361.1271921381
 20
-15.2360812637
 10
362.0890727832
 20
-18.007882331
 10
362.89490999
 20
-20.9245901694
 10
363.5423909503
 20
-23.9777900401
 10
364.0296401292
 20
-27.1586816904
 10
364.3552561441
 20
-30.4580926657
 10
364.5183012275
 20
-33.8665091071
 10
364.5183012275
 20
-37.3741061696
 10
364.3552561441
 20
-40.9707704574
 10
364.0296401292
 20
-44.6461296812
 10
363.5423909503
 20
-48.3895872589
 10
362.89490999
 20
-52.1903527339
 10
362.0890727832
 20
-56.0374604072
 10
361.1271921381
 20
-59.9198252283
 10
360.0120444785
 20
-63.826253444
 10
358.7468487697
 20
-67.7454752961
 10
357.3352507143
 20
-71.666198253
 10
355.7813174831
 20
-75.5771130921
 10
354.0895377156
 20
-79.4669440908
 10
352.2647793726
 20
-83.3244763992
 10
350.3123108102
 20
-87.1385895023
 10
348.2377586328
 20
-90.898281551
 10
346.0471024245
 20
-94.5927180311
 10
343.7466615783
 20
-98.2112454504
 10
341.3430689546
 20
-101.7434278387
 10
338.8432524415
 20
-105.1790817268
 10
336.2544191502
 20
-108.5083065644
 10
333.5840369754
 20
-111.7214984057
 10
330.8398029853
 20
-114.8093894513
 10
328.0296302507
 20
-117.763079986
 10
325.1616201862
 20
-120.5740604299
 10
322.2440427936
 20
-123.2342166593
 10
319.2853103205
 20
-125.7358817163
 10
316.2939535525
 20
-128.0718434109
 10
313.2785964592
 20
-130.2353650411
 10
310.247934133
 20
-132.2202102963
 10
307.2107041424
 20
-134.0206597946
 10
304.1756638123
 20
-135.631512031
 10
301.1515642114
 20
-137.0481288129
 10
298.1471241396
 20
-138.2664320256
 10
295.1710067501
 20
-139.2828988772
 10
292.2317922192
 20
-140.0946020104
 10
289.3379553561
 20
-140.6991980935
 10
286.4978399198
 20
-141.0949548147
 10
283.7196342527
 20
-141.280716278
 10
281.0113515244
 20
-141.2559569952
 10
278.3807954872
 20
-141.0207469006
 10
275.835552574
 20
-140.5757619971
 10
273.3829642389
 20
-139.9222820721
 10
271.0300979815
 20
-139.0622013415
 10
268.7837420787
 20
-137.9979919466
 10
266.6503687058
 20
-136.7327222019
 10
264.6361313028
 20
-135.2700429068
 10
262.7468382322
 20
-133.6141690916
 10
260.9879343401
 20
-131.7698784952
 10
259.364490419
 20
-129.742484187
 10
257.8811900375
 20
-127.5378360872
 10
256.5423111009
 20
-125.1622890249
 10
255.3517100457
 20
-122.6226890492
 10
254.3128271084
 20
-119.9263612612
 10
253.4286441785
 20
-117.0810839554
 10
252.7017216772
 20
-114.0950536409
 10
252.1341564101
 20
-110.9768819963
 10
251.7275762992
 20
-107.735563169
 10
251.483156188
 20
-104.3804406965
 10
251.4016073045
 20
-100.9211850719
  0
LWPOLYLINE
  5
E5
330
1F
100
AcDbEntity
  8
0
  6
Continuous
 62
     7
370
    25
100
AcDbPolyline
 90
      106
 70
   128
 43
0.0
 10
261.7253672117
 20
-94.9614053349
 10
261.8081383539
 20
-91.7199750091
 10
262.0561567523
 20
-88.3945818917
 10
262.4685373232
 20
-84.9971282845
 10
263.0437996585
 20
-81.5397787933
 10
263.7798917336
 20
-78.034906337
 10
264.6741688336
 20
-74.495061347
 10
265.7234357007
 20
-70.9329128352
 10
266.923935997
 20
-67.3612134119
 10
268.2713707439
 20
-63.7927490967
 10
269.7609141273
 20
-60.2402952134
 10
271.3872398391
 20
-56.7165662017
 10
273.1445210776
 20
-53.2341760733
 10
275.0264700599
 20
-49.8055912669
 10
277.0263485584
 20
-46.4430880632
 10
279.1369968774
 20
-43.1587023968
 10
281.3508628284
 20
-39.9641857528
 10
283.6600175355
 20
-36.8709808326
 10
286.056194948
 20
-33.8901592004
 10
288.5308194995
 20
-31.0323870645
 10
291.0750324491
 20
-28.3078979033
 10
293.6797248092
 20
-25.7264460799
 10
296.3355729067
 20
-23.297271104
 10
299.0330706517
 20
-21.0290668363
 10
301.7625604888
 20
-18.9299544943
 10
304.5142715932
 20
-17.0074484358
 10
307.2783540325
 20
-15.2684333952
 10
310.0449129284
 20
-13.7191265117
 10
312.804044677
 20
-12.3650868376
 10
315.5458726747
 20
-11.2111460454
 10
318.2605808218
 20
-10.2614438393
 10
320.9384519647
 20
-9.5193814285
 10
323.5699009882
 20
-8.9876145905
 10
326.1455054374
 20
-8.6680420777
 10
328.6560483234
 20
-8.5618082822
 10
331.0925391966
 20
-8.6693001966
 10
333.4462589277
 20
-8.9901276456
 10
335.7087834152
 20
-9.5231400189
 10
337.8720072936
 20
-10.2664369197
 10
339.9281913475
 20
-11.2173529598
 10
341.8699730496
 20
-12.3724820955
 10
343.6904034381
 20
-13.7276928404
 10
345.3829655566
 20
-15.2781297879
 10
346.9415955272
 20
-17.0182470735
 10
348.3607220634
 20
-18.9418159835
 10
349.6352585674
 20
-21.0419462466
 10
350.7606452771
 20
-23.3111225409
 10
351.7328545342
 20
-25.7412212236
 10
352.5484013213
 20
-28.3235453143
 10
353.2043748715
 20
-31.0488465506
 10
353.6984149614
 20
-33.9073740558
 10
354.02876196
 20
-36.8888922145
 10
354.1942357556
 20
-39.9827249676
 10
354.1942357556
 20
-43.1778025805
 10
354.02876196
 20
-46.4626873114
 10
353.6984149614
 20
-49.8256159961
 10
353.2043748715
 20
-53.2545500476
 10
352.5484013213
 20
-56.7372222239
 10
351.7328545342
 20
-60.2611565922
 10
350.7606452771
 20
-63.8137441904
 10
349.6352585674
 20
-67.3822643224
 10
348.3607220634
 20
-70.9539431103
 10
346.9415955272
 20
-74.5160006427
 10
345.3829655566
 20
-78.0556737878
 10
343.6904034381
 20
-81.5603013611
 10
341.8699730496
 20
-85.017336294
 10
339.9281913475
 20
-88.414398862
 10
337.8720072936
 20
-91.7393344784
 10
335.7087834152
 20
-94.9802365061
 10
333.4462589277
 20
-98.1255040494
 10
331.0925391966
 20
-101.1638784552
 10
328.6560483234
 20
-104.0844828529
 10
326.1455054374
 20
-106.876860175
 10
323.5699009882
 20
-109.5310172616
 10
320.9384519647
 20
-112.0374567961
 10
318.2605808218
 20
-114.387198596
 10
315.5458726747
 20
-116.5718317004
 10
312.804044677
 20
-118.5835381317
 10
310.0449129284
 20
-120.4151241666
 10
307.2783540325
 20
-122.0600181937
 10
304.5142715932
 20
-123.5123448079
 10
301.7625604888
 20
-124.766896765
 10
299.0330706517
 20
-125.8191863095
 10
296.3355729067
 20
-126.6654466448
 10
293.6797248092
 20
-127.3026486127
 10
291.0750324491
 20
-127.7285105758
 10
288.5308194995
 20
-127.94150716
 10
286.056194948
 20
-127.9408757152
 10
283.6600175355
 20
-127.7266216356
 10
281.3508628284
 20
-127.2995099909
 10
279.1369968774
 20
-126.6610685662
 10
277.0263485584
 20
-125.813585578
 10
275.0264700599
 20
-124.76009294
 10
273.1445210776
 20
-123.5043601781
 10
271.3872398391
 20
-122.0508837811
 10
269.7609141273
 20
-120.404870468
 10
268.2713707439
 20
-118.5722067683
 10
266.923935997
 20
-116.5594574976
 10
265.7234357007
 20
-114.373826213
 10
264.6741688336
 20
-112.0231354394
 10
263.7798917336
 20
-109.5158008115
 10
263.0437996585
 20
-106.860802175
 10
262.4685373232
 20
-104.0676364387
 10
262.0561567523
 20
-101.146307304
 10
261.8081383539
 20
-98.1072701342
 10
261.7253672117
 20
-94.9614053349
  0
ARC
  5
E6
330
1F
100
AcDbEntity
  8
0
  6
Continuous
 62
     7
370
    25
100
AcDbCircle
 10
401.8293404045
 20
-64.7260960989
 30
0.0
 40
30.0169094689605
100
AcDbArc
 50
32.3484680023
 51
49.2635328917
  0
ARC
  5
E7
330
1F
100
AcDbEntity
  8
0
  6
Continuous
 62
     7
370
    25
100
AcDbCircle
 10
351.8376250977
 20
-151.3168429961
 30
0.0
 40
30.01432388918882
100
AcDbArc
 50
251.2673170181
 51
267.6272485083
  0
LWPOLYLINE
  5
E8
330
1F
100
AcDbEntity
  8
0
  6
Continuous
 62
     7
370
    25
100
AcDbPolyline
 90
        3
 70
   128
 43
0.0
 10
459.714321117
 20
-84.9401690637
 10
460.0670981416
 20
-85.3492779689
 10
461.4231045038
 20
-87.1192974147
  0
LWPOLYLINE
  5
E9
330
1F
100
AcDbEntity
  8
0
  6
Continuous
 62
     7
370
    25
100
AcDbPolyline
 90
        3
 70
   128
 43
0.0
 10
401.8725156904
 20
-191.7803207716
 10
400.5381411982
 20
-191.6756897108
 10
398.2950227002
 20
-191.3330427921
  0
LWPOLYLINE
  5
EA
330
1F
100
AcDbEntity
  8
0
  6
Continuous
 62
     7
370
    25
100
AcDbPolyline
 90
       54
 70
   128
 43
0.0
 10
515.9943092175
 20
-116.187825286
 10
516.7034747248
 20
-116.6162347201
 10
518.5050839112
 20
-117.8914688585
 10
520.18110866
 20
-119.3617271307
 10
521.7253165059
 20
-121.0215366608
 10
523.1319623066
 20
-122.864724993
 10
524.3958119503
 20
-124.8844353026
 10
525.5121660635
 20
-127.0731522545
 10
526.4768679133
 20
-129.4227385056
 10
527.2863323832
 20
-131.9244468754
 10
527.9375486079
 20
-134.5689743388
 10
528.4280931436
 20
-137.34648256
 10
528.7561378706
 20
-140.2466400989
 10
528.920468433
 20
-143.2586552076
 10
528.920468433
 20
-146.37132621
 10
528.7561378706
 20
-149.5730733475
 10
528.4280931436
 20
-152.8519832662
 10
527.9375486079
 20
-156.1958621527
 10
527.2863323832
 20
-159.592267865
 10
526.4768679133
 20
-163.0285640185
 10
525.5121660635
 20
-166.491971317
 10
524.3958119503
 20
-169.9696032927
 10
523.1319623066
 20
-173.4485233409
 10
521.7253165059
 20
-176.915790345
 10
520.18110866
 20
-180.3585043038
 10
518.5050839112
 20
-183.7638595612
 10
516.7034747248
 20
-187.1191873903
 10
514.7829877179
 20
-190.4120046615
 10
512.7507615131
 20
-193.6300655503
 10
510.6143588355
 20
-196.7613965176
 10
508.3817296344
 20
-199.7943449761
 10
506.0611755219
 20
-202.7176332796
 10
503.6613313335
 20
-205.5203845771
 10
501.1911229815
 20
-208.1921745204
 10
498.6597424302
 20
-210.7230609197
 10
496.0766029147
 20
-213.1036308881
 10
493.4513178678
 20
-215.3250251746
 10
490.7936508704
 20
-217.3789853079
 10
488.1134896389
 20
-219.2578655712
 10
485.4208040022
 20
-220.954678555
 10
482.7256113689
 20
-222.4631120503
 10
480.0379377909
 20
-223.7775545677
 10
477.3677814969
 20
-224.8931163899
 10
474.7250759721
 20
-225.8056478424
 10
472.119651969
 20
-226.5117520994
 10
469.5612026042
 20
-227.0088053329
 10
467.0592445045
 20
-227.2949578493
 10
464.6230855377
 20
-227.3691435927
 10
462.2617872765
 20
-227.2310866048
 10
459.9841373386
 20
-226.8813017831
 10
457.7986046066
 20
-226.3210903137
 10
455.7133207879
 20
-225.5525351072
 10
453.7360435368
 20
-224.5784977527
 10
453.4993889824
 20
-224.4439314102
  0
LWPOLYLINE
  5
EB
330
1F
100
AcDbEntity
  8
0
  6
Continuous
 62
     1
370
    25
100
AcDbPolyline
 90
       57
 70
   128
 43
0.0
 10
420.0680991289
 20
-40.8842245546
 10
421.3742009883
 20
-41.9597739589
 10
423.1989593313
 20
-43.7104851294
 10
424.8907390989
 20
-45.6470287854
 10
426.44467233
 20
-47.7638105049
 10
427.8562703854
 20
-50.0547370382
 10
429.1214660942
 20
-52.5131950183
 10
430.2366137539
 20
-55.1321011518
 10
431.1984943989
 20
-57.9039022191
 10
432.0043316057
 20
-60.8206100575
 10
432.651812566
 20
-63.8738099282
 10
433.1390617449
 20
-67.0547015785
 10
433.4646777598
 20
-70.3541125538
 10
433.6277228433
 20
-73.7625289952
 10
433.6277228433
 20
-77.2701260577
 10
433.4646777598
 20
-80.8667903454
 10
433.1390617449
 20
-84.5421495693
 10
432.651812566
 20
-88.285607147
 10
432.0043316057
 20
-92.086372622
 10
431.1984943989
 20
-95.9334802953
 10
430.2366137539
 20
-99.8158451164
 10
429.1214660942
 20
-103.7222733321
 10
427.8562703854
 20
-107.6414951842
 10
426.44467233
 20
-111.5622181411
 10
424.8907390989
 20
-115.4731329801
 10
423.1989593313
 20
-119.3629639789
 10
421.3742009883
 20
-123.2204962873
 10
419.421732426
 20
-127.0346093904
 10
417.3471802486
 20
-130.7943014391
 10
415.1565240402
 20
-134.4887379192
 10
412.856083194
 20
-138.1072653385
 10
410.4524905703
 20
-141.6394477268
 10
407.9526740573
 20
-145.0751016149
 10
405.363840766
 20
-148.4043264525
 10
402.6934585912
 20
-151.6175182938
 10
399.9492246011
 20
-154.7054093394
 10
397.1390518665
 20
-157.6590998741
 10
394.2710418019
 20
-160.470080318
 10
391.3534644093
 20
-163.1302365474
 10
388.3947319363
 20
-165.6319016044
 10
385.4033751683
 20
-167.9678632989
 10
382.3880180749
 20
-170.1313849292
 10
379.3573557487
 20
-172.1162301844
 10
376.3201257581
 20
-173.9166796827
 10
373.285085428
 20
-175.5275319191
 10
370.2609858271
 20
-176.944148701
 10
367.2565457553
 20
-178.1624519137
 10
364.2804283658
 20
-179.1789187653
 10
361.3412138349
 20
-179.9906218985
 10
358.4473769718
 20
-180.5952179816
 10
355.6072615355
 20
-180.9909747027
 10
352.8290558684
 20
-181.1767361661
 10
350.1207731401
 20
-181.1519768833
 10
347.490217103
 20
-180.9167667887
 10
344.9449741897
 20
-180.4717818852
 10
342.4923858546
 20
-179.8183019602
 10
340.2942433123
 20
-179.0223960019
  0
LWPOLYLINE
  5
EC
330
1F
100
AcDbEntity
  8
0
  6
Continuous
 62
     1
370
    25
100
AcDbPolyline
 90
       49
 70
   128
 43
0.0
 10
427.1879109301
 20
-48.665032779
 10
428.1802795517
 20
-50.316927342
 10
429.4443899791
 20
-52.7732741752
 10
430.5585735296
 20
-55.389930769
 10
431.5196270428
 20
-58.1593499889
 10
432.3247793633
 20
-61.0735467146
 10
432.9717018778
 20
-64.1241221754
 10
433.4585295883
 20
-67.3022814431
 10
433.7838663803
 20
-70.5988554854
 10
433.9467692181
 20
-74.0043433708
 10
433.9467692181
 20
-77.5089251979
 10
433.7838663803
 20
-81.1024966964
 10
433.4585295883
 20
-84.7746966034
 10
432.9717018778
 20
-88.5149351813
 10
432.3247793633
 20
-92.3124314787
 10
431.5196270428
 20
-96.1562372864
 10
430.5585735296
 20
-100.0352652739
 10
429.4443899791
 20
-103.9383308131
 10
428.1802795517
 20
-107.8541884793
 10
426.7698932182
 20
-111.7715381365
 10
425.2172981495
 20
-115.6790918551
 10
423.5269724482
 20
-119.5655769536
 10
421.7037840753
 20
-123.4197937911
 10
419.7529908502
 20
-127.2306279354
 10
417.6802220113
 20
-130.987091226
 10
415.4914492403
 20
-134.6783506689
 10
413.1929866618
 20
-138.2937679806
 10
410.7914592336
 20
-141.8229117529
 10
408.2937922099
 20
-145.2556152468
 10
405.707184799
 20
-148.5819794318
 10
403.0390996274
 20
-151.7924034037
 10
400.2972232267
 20
-154.8776436969
 10
397.4894660333
 20
-157.8287960331
 10
394.6239215594
 20
-160.6373614782
 10
391.7088519043
 20
-163.2952304705
 10
388.7526627301
 20
-165.7947459376
 10
385.7638775785
 20
-168.1286937875
 10
382.7511125163
 20
-170.2903601315
 10
379.7230552275
 20
-172.2735007684
 10
376.688436119
 20
-174.072394367
 10
373.6560046952
 20
-175.6818682715
 10
370.6345043695
 20
-177.0972704579
 10
367.6326471093
 20
-178.3145206718
 10
364.6590875066
 20
-179.3301132311
 10
361.7224004695
 20
-180.141117736
 10
358.8310502705
 20
-180.7451969378
 10
355.9933767173
 20
-181.1406086379
 10
353.2175602496
 20
-181.3262136701
 10
350.5950173821
 20
-181.3054335697
  0
LWPOLYLINE
  5
ED
330
1F
100
AcDbEntity
  8
0
  6
Continuous
 62
     1
370
    25
100
AcDbPolyline
 90
       45
 70
   128
 43
0.0
 10
461.4231045038
 20
-87.1192974147
 10
461.4752902048
 20
-87.1944953612
 10
462.7405306945
 20
-89.2164278739
 10
463.8581123347
 20
-91.4075540874
 10
464.8238783924
 20
-93.7597229703
 10
465.6342332145
 20
-96.2641842994
 10
466.2861659356
 20
-98.911621361
 10
466.7772478436
 20
-101.6921866935
 10
467.1056560872
 20
-104.5955340281
 10
467.2701657736
 20
-107.6108644866
 10
467.2701657736
 20
-110.7269604238
 10
467.1056560872
 20
-113.9322297233
 10
466.7772478436
 20
-117.2147491451
 10
466.2861659356
 20
-120.5623055797
 10
465.6342332145
 20
-123.9624481394
 10
464.8238783924
 20
-127.4025252309
 10
463.8581123347
 20
-130.8697438696
 10
462.7405306945
 20
-134.3512023793
 10
461.4752902048
 20
-137.8339504672
 10
460.0670981416
 20
-141.3050318081
 10
458.5211912509
 20
-144.7515342336
 10
456.8433225775
 20
-148.1606368791
 10
455.0397324891
 20
-151.5196573301
 10
453.1171302373
 20
-154.8160987689
 10
451.0826676154
 20
-158.0376986422
 10
448.943915251
 20
-161.172472765
 10
446.7088283618
 20
-164.208759425
 10
444.3857217307
 20
-167.135264247
 10
441.9832367789
 20
-169.9411004946
 10
439.5103112723
 20
-172.6158278511
 10
436.9761437606
 20
-175.1495003249
 10
434.3901632841
 20
-177.5326898215
 10
431.7619892024
 20
-179.7565275844
 10
429.1013982674
 20
-181.812747539
 10
426.4182880736
 20
-183.6936952242
 10
423.7226396863
 20
-185.3923737019
 10
421.0244814212
 20
-186.9024675085
 10
418.3338508138
 20
-188.2183585253
 10
415.6607564235
 20
-189.3351480293
 10
413.0151434247
 20
-190.2486826397
 10
410.4068534359
 20
-190.9555653418
 10
407.8455881348
 20
-191.4531643234
 10
405.340877319
 20
-191.7396314132
 10
402.902036759
 20
-191.813899035
 10
401.8725156904
 20
-191.7803207716
  0
LWPOLYLINE
  5
EE
330
1F
100
AcDbEntity
  8
0
  6
Continuous
 62
     1
370
    25
100
AcDbPolyline
 90
       49
 70
   128
 43
0.0
 10
458.8196330852
 20
-83.9266232666
 10
458.8498602781
 20
-83.955951073
 10
460.394068124
 20
-85.6157606031
 10
461.8007139246
 20
-87.4589489352
 10
463.0645635684
 20
-89.4786592449
 10
464.1809176816
 20
-91.6673761967
 10
465.1456195314
 20
-94.0169624479
 10
465.9550840013
 20
-96.5186708177
 10
466.606300226
 20
-99.1631982811
 10
467.0968447617
 20
-101.9407065023
 10
467.4248894887
 20
-104.8408640412
 10
467.5892200511
 20
-107.8528791499
 10
467.5892200511
 20
-110.9655501523
 10
467.4248894887
 20
-114.1672972897
 10
467.0968447617
 20
-117.4462072084
 10
466.606300226
 20
-120.790086095
 10
465.9550840013
 20
-124.1864918072
 10
465.1456195314
 20
-127.6227879608
 10
464.1809176816
 20
-131.0861952593
 10
463.0645635684
 20
-134.563827235
 10
461.8007139246
 20
-138.0427472831
 10
460.394068124
 20
-141.5100142873
 10
458.8498602781
 20
-144.9527282461
 10
457.1738355293
 20
-148.3580835035
 10
455.3722263429
 20
-151.7134113325
 10
453.451739336
 20
-155.0062286037
 10
451.4195131312
 20
-158.2242894925
 10
449.2831104536
 20
-161.3556204599
 10
447.0504812525
 20
-164.3885689184
 10
444.72992714
 20
-167.3118572218
 10
442.3300829516
 20
-170.1146085193
 10
439.8598745996
 20
-172.7863984626
 10
437.3284940483
 20
-175.3172848619
 10
434.7453545328
 20
-177.6978548304
 10
432.1200694859
 20
-179.9192491169
 10
429.4624024885
 20
-181.9732092501
 10
426.782241257
 20
-183.8520895134
 10
424.0895556203
 20
-185.5489024973
 10
421.394362987
 20
-187.0573359925
 10
418.706689409
 20
-188.37177851
 10
416.036533115
 20
-189.4873403321
 10
413.3938275902
 20
-190.3998717846
 10
410.7884035871
 20
-191.1059760417
 10
408.2299542223
 20
-191.6030292752
 10
405.7279961225
 20
-191.8891817916
 10
403.2918371558
 20
-191.963367535
 10
400.9305388946
 20
-191.8253105471
 10
398.6528889567
 20
-191.4755257253
 10
396.9698994412
 20
-191.0651148055
  0
ENDSEC
  0
SECTION
  2
OBJECTS
  0
DICTIONARY
  5
C
330
0
100
AcDbDictionary
281
     1
  3
ACAD_GROUP
350
D
  3
ACAD_LAYOUT
350
1A
  3
ACAD_MLINESTYLE
350
17
  3
ACAD_PLOTSETTINGS
350
19
  3
ACAD_PLOTSTYLENAME
350
E
  3
ACAD_SCALELIST
350
47
  0
DICTIONARY
  5
D
102
{ACAD_REACTORS
330
C
102
}
330
C
100
AcDbDictionary
281
     1
  0
DICTIONARY
  5
1A
102
{ACAD_REACTORS
330
C
102
}
330
C
100
AcDbDictionary
281
     1
  3
Layout1
350
1E
  3
Layout2
350
26
  3
Model
350
22
  0
DICTIONARY
  5
17
102
{ACAD_REACTORS
330
C
102
}
330
C
100
AcDbDictionary
281
     1
  3
Standard
350
18
  0
DICTIONARY
  5
19
102
{ACAD_REACTORS
330
C
102
}
330
C
100
AcDbDictionary
281
     1
  0
ACDBDICTIONARYWDFLT
  5
E
102
{ACAD_REACTORS
330
C
102
}
330
C
100
AcDbDictionary
281
     1
  3
Normal
350
F
100
AcDbDictionaryWithDefault
340
F
  0
DICTIONARY
  5
47
102
{ACAD_REACTORS
330
C
102
}
330
C
100
AcDbDictionary
281
     1
  3
A0
350
48
  3
A1
350
49
  3
A2
350
4A
  3
A3
350
4B
  3
A4
350
4C
  3
A5
350
4D
  3
A6
350
4E
  3
A7
350
4F
  3
A8
350
50
  3
A9
350
51
  3
B0
350
52
  3
B1
350
53
  3
B2
350
54
  3
B3
350
55
  3
B4
350
56
  3
B5
350
57
  3
B6
350
58
  3
B7
350
59
  3
B8
350
5A
  3
B9
350
5B
  3
C0
350
5C
  3
C1
350
5D
  3
C2
350
5E
  3
C3
350
5F
  3
C4
350
60
  3
C5
350
61
  3
C6
350
62
  3
C7
350
63
  3
C8
350
64
  3
C9
350
65
  3
D0
350
66
  3
D1
350
67
  3
D2
350
68
  0
LAYOUT
  5
1E
102
{ACAD_REACTORS
330
1A
102
}
330
1A
100
AcDbPlotSettings
  1

  2
none_device
  4

  6

 40
0.0
 41
0.0
 42
0.0
 43
0.0
 44
0.0
 45
0.0
 46
0.0
 47
0.0
 48
0.0
 49
0.0
140
0.0
141
0.0
142
1.0
143
1.0
 70
   688
 72
     1
 73
     0
 74
     5
  7

 75
    16
147
1.0
148
0.0
149
0.0
100
AcDbLayout
  1
Layout1
 70
     1
 71
     1
 10
0.0
 20
0.0
 11
420.0
 21
297.0
 12
0.0
 22
0.0
 32
0.0
 14
1.0000000000E+20
 24
1.0000000000E+20
 34
1.0000000000E+20
 15
-1.0000000000E+20
 25
-1.0000000000E+20
 35
-1.0000000000E+20
146
0.0
 13
0.0
 23
0.0
 33
0.0
 16
1.0
 26
0.0
 36
0.0
 17
0.0
 27
1.0
 37
0.0
 76
     0
330
1B
  0
LAYOUT
  5
26
102
{ACAD_REACTORS
330
1A
102
}
330
1A
100
AcDbPlotSettings
  1

  2
none_device
  4

  6

 40
0.0
 41
0.0
 42
0.0
 43
0.0
 44
0.0
 45
0.0
 46
0.0
 47
0.0
 48
0.0
 49
0.0
140
0.0
141
0.0
142
1.0
143
1.0
 70
   688
 72
     1
 73
     0
 74
     5
  7

 75
    16
147
1.0
148
0.0
149
0.0
100
AcDbLayout
  1
Layout2
 70
     1
 71
     2
 10
0.0
 20
0.0
 11
0.0
 21
0.0
 12
0.0
 22
0.0
 32
0.0
 14
0.0
 24
0.0
 34
0.0
 15
0.0
 25
0.0
 35
0.0
146
0.0
 13
0.0
 23
0.0
 33
0.0
 16
1.0
 26
0.0
 36
0.0
 17
0.0
 27
1.0
 37
0.0
 76
     0
330
23
  0
LAYOUT
  5
22
102
{ACAD_REACTORS
330
1A
102
}
330
1A
100
AcDbPlotSettings
  1

  2
none_device
  4
Letter_(8.50_x_11.00_Inches)
  6

 40
6.35
 41
6.35
 42
6.35000508
 43
6.35000508
 44
215.9
 45
279.4
 46
0.0
 47
0.0
 48
0.0
 49
0.0
140
0.0
141
0.0
142
1.0
143
1.0
 70
  1712
 72
     1
 73
     0
 74
     0
  7

 75
     0
147
1.0
148
0.0
149
0.0
100
AcDbLayout
  1
Model
 70
     1
 71
     0
 10
0.0
 20
0.0
 11
279.4
 21
215.9
 12
0.0
 22
0.0
 32
0.0
 14
0.0
 24
0.0
 34
0.0
 15
279.4
 25
215.9
 35
0.0
146
0.0
 13
0.0
 23
0.0
 33
0.0
 16
1.0
 26
0.0
 36
0.0
 17
0.0
 27
1.0
 37
0.0
 76
     0
330
1F
331
29
  0
MLINESTYLE
  5
18
102
{ACAD_REACTORS
330
17
102
}
330
17
100
AcDbMlineStyle
  2
Standard
 70
     0
  3

 62
   256
 51
90.0
 52
90.0
 71
     2
 49
0.5
 62
   256
  6
BYLAYER
 49
-0.5
 62
   256
  6
BYLAYER
  0
ACDBPLACEHOLDER
  5
F
102
{ACAD_REACTORS
330
E
102
}
330
E
  0
SCALE
  5
48
102
{ACAD_REACTORS
330
47
102
}
330
47
100
AcDbScale
 70
     0
300
1:1
140
1.0
141
1.0
290
     1
  0
SCALE
  5
49
102
{ACAD_REACTORS
330
47
102
}
330
47
100
AcDbScale
 70
     0
300
1:2
140
1.0
141
2.0
290
     0
  0
SCALE
  5
4A
102
{ACAD_REACTORS
330
47
102
}
330
47
100
AcDbScale
 70
     0
300
1:4
140
1.0
141
4.0
290
     0
  0
SCALE
  5
4B
102
{ACAD_REACTORS
330
47
102
}
330
47
100
AcDbScale
 70
     0
300
1:5
140
1.0
141
5.0
290
     0
  0
SCALE
  5
4C
102
{ACAD_REACTORS
330
47
102
}
330
47
100
AcDbScale
 70
     0
300
1:8
140
1.0
141
8.0
290
     0
  0
SCALE
  5
4D
102
{ACAD_REACTORS
330
47
102
}
330
47
100
AcDbScale
 70
     0
300
1:10
140
1.0
141
10.0
290
     0
  0
SCALE
  5
4E
102
{ACAD_REACTORS
330
47
102
}
330
47
100
AcDbScale
 70
     0
300
1:16
140
1.0
141
16.0
290
     0
  0
SCALE
  5
4F
102
{ACAD_REACTORS
330
47
102
}
330
47
100
AcDbScale
 70
     0
300
1:20
140
1.0
141
20.0
290
     0
  0
SCALE
  5
50
102
{ACAD_REACTORS
330
47
102
}
330
47
100
AcDbScale
 70
     0
300
1:30
140
1.0
141
30.0
290
     0
  0
SCALE
  5
51
102
{ACAD_REACTORS
330
47
102
}
330
47
100
AcDbScale
 70
     0
300
1:40
140
1.0
141
40.0
290
     0
  0
SCALE
  5
52
102
{ACAD_REACTORS
330
47
102
}
330
47
100
AcDbScale
 70
     0
300
1:50
140
1.0
141
50.0
290
     0
  0
SCALE
  5
53
102
{ACAD_REACTORS
330
47
102
}
330
47
100
AcDbScale
 70
     0
300
1:100
140
1.0
141
100.0
290
     0
  0
SCALE
  5
54
102
{ACAD_REACTORS
330
47
102
}
330
47
100
AcDbScale
 70
     0
300
2:1
140
2.0
141
1.0
290
     0
  0
SCALE
  5
55
102
{ACAD_REACTORS
330
47
102
}
330
47
100
AcDbScale
 70
     0
300
4:1
140
4.0
141
1.0
290
     0
  0
SCALE
  5
56
102
{ACAD_REACTORS
330
47
102
}
330
47
100
AcDbScale
 70
     0
300
8:1
140
8.0
141
1.0
290
     0
  0
SCALE
  5
57
102
{ACAD_REACTORS
330
47
102
}
330
47
100
AcDbScale
 70
     0
300
10:1
140
10.0
141
1.0
290
     0
  0
SCALE
  5
58
102
{ACAD_REACTORS
330
47
102
}
330
47
100
AcDbScale
 70
     0
300
100:1
140
100.0
141
1.0
290
     0
  0
SCALE
  5
59
102
{ACAD_REACTORS
330
47
102
}
330
47
100
AcDbScale
 70
     0
300
1/128" = 1'-0"
140
0.0078125
141
12.0
290
     0
  0
SCALE
  5
5A
102
{ACAD_REACTORS
330
47
102
}
330
47
100
AcDbScale
 70
     0
300
1/64" = 1'-0"
140
0.015625
141
12.0
290
     0
  0
SCALE
  5
5B
102
{ACAD_REACTORS
330
47
102
}
330
47
100
AcDbScale
 70
     0
300
1/32" = 1'-0"
140
0.03125
141
12.0
290
     0
  0
SCALE
  5
5C
102
{ACAD_REACTORS
330
47
102
}
330
47
100
AcDbScale
 70
     0
300
1/16" = 1'-0"
140
0.0625
141
12.0
290
     0
  0
SCALE
  5
5D
102
{ACAD_REACTORS
330
47
102
}
330
47
100
AcDbScale
 70
     0
300
3/32" = 1'-0"
140
0.09375
141
12.0
290
     0
  0
SCALE
  5
5E
102
{ACAD_REACTORS
330
47
102
}
330
47
100
AcDbScale
 70
     0
300
1/8" = 1'-0"
140
0.125
141
12.0
290
     0
  0
SCALE
  5
5F
102
{ACAD_REACTORS
330
47
102
}
330
47
100
AcDbScale
 70
     0
300
3/16" = 1'-0"
140
0.1875
141
12.0
290
     0
  0
SCALE
  5
60
102
{ACAD_REACTORS
330
47
102
}
330
47
100
AcDbScale
 70
     0
300
1/4" = 1'-0"
140
0.25
141
12.0
290
     0
  0
SCALE
  5
61
102
{ACAD_REACTORS
330
47
102
}
330
47
100
AcDbScale
 70
     0
300
3/8" = 1'-0"
140
0.375
141
12.0
290
     0
  0
SCALE
  5
62
102
{ACAD_REACTORS
330
47
102
}
330
47
100
AcDbScale
 70
     0
300
1/2" = 1'-0"
140
0.5
141
12.0
290
     0
  0
SCALE
  5
63
102
{ACAD_REACTORS
330
47
102
}
330
47
100
AcDbScale
 70
     0
300
3/4" = 1'-0"
140
0.75
141
12.0
290
     0
  0
SCALE
  5
64
102
{ACAD_REACTORS
330
47
102
}
330
47
100
AcDbScale
 70
     0
300
1" = 1'-0"
140
1.0
141
12.0
290
     0
  0
SCALE
  5
65
102
{ACAD_REACTORS
330
47
102
}
330
47
100
AcDbScale
 70
     0
300
1-1/2" = 1'-0"
140
1.5
141
12.0
290
     0
  0
SCALE
  5
66
102
{ACAD_REACTORS
330
47
102
}
330
47
100
AcDbScale
 70
     0
300
3" = 1'-0"
140
3.0
141
12.0
290
     0
  0
SCALE
  5
67
102
{ACAD_REACTORS
330
47
102
}
330
47
100
AcDbScale
 70
     0
300
6" = 1'-0"
140
6.0
141
12.0
290
     0
  0
SCALE
  5
68
102
{ACAD_REACTORS
330
47
102
}
330
47
100
AcDbScale
 70
     0
300
1'-0" = 1'-0"
140
12.0
141
12.0
290
     0
  0
ENDSEC
  0
EOF
